Cifra da Música A Ele a Glória - Diante do Trono


A- A A+

Intro: Em  C  D  Em  Em  C  D  Em  D Em  D  Em


E|---------75---------------------------------------------|
B|--58----------858875-------5--------5-------------------
G|------------------------7------7------------------------
D|--------------------------------------------------------|
A|--------------------------------------------------------|
E|--------------------------------------------------------|


Em                  C
Porque Dele e por Ele
D                Em
Para Ele são todas as coisas
                  C
Porque Dele e por Ele
     D                   Em
Para Ele são todas as coisas

Refrão:


E|------------------------------------------------------------------------------|
B|-8-10-12/13-12-10----8-10-12-12-10-8-10-8-7-8----5-7-8-8-7/10-8-7--7/8/7--3-5-|
G|------------------------------------------------------------------------------|
D|------------------------------------------------------------------------------|
A|------------------------------------------------------------------------------|
E|------------------------------------------------------------------------------|


        C   D
A Ele a Glória
        G    D/F#  Em
A Ele a Gló   -    ria
        C   Bm7
A Ele a Glória
             Em
Pra sempre, amém

Em                   C
   Quão profundas riquezas
     D                   Em
O saber e o conhecer de Deus
           C
Quão insondáveis
       D             Em
Seus juízos e Seus caminhos

        C   D
A Ele a Glória
        G   D/F#  Em
A Ele a Gló  -    ria
        C   Bm7
A Ele a Glória
             Em
Pra sempre, amém

Modulação: C  Bm7  C  D  Eb  F

 G  F  D  Eb  F
A   Ele a   glória
         Bb   F/A   Gm7
A Ele a glória
        Eb7M     Dm7
A Ele a glória
             Gm
Pra sempre, amém

         Eb7M    Dm7
A Ele a glória
Eb7M    Dm7  Eb7M  Dm7
Glória, glória
              G
Pra sempre, amém