Cifra da Música Arrocha da Riquesa - Dona Help


A- A A+

Solo:

   Dm                                         C
E|---------------------------------------------------------------------------
A|---------------------------------------------------------------------------
D|---------------------------------------------------------------------------  (2x)
G|---------------------------------------------------------------------------
B|-----------10---10--------------10---10------------8-10-8-10---------8-----
E|10--10--10----8----8-10--10--10----8----8--8--8--8-----------8--8--8-----12


Primeira Parte:
Dm                                C
Vem que tá tudo bem eu não tô nem aí

O que eu quero me divertir
Dm
Dinheiro foi feito pra gastar
                    C
Quem espalhou pelo mundo que se vire pra juntar
Dm
Eu gosto de mulher, eu gosto de luxar
       C
O meu carro é rebaixado e as mina piram pra entrar
Dm
E elas me abraçam e beijam meu pesoço
  C
E diz ai que delícia, que pretinho cheiroso


Segunda parte:

Dm
E nessa eu vou vivendo nessa vida mais ou mênos
C
Eu tô causando, eu tô podendo
Dm
Vem beber whisky, vem ver como o rico vive,
    C
Vem andar de Veloster, Iubito e Amarok
Dm
Usar dodiban, lacoste e armani
  C
E mulherada chega é só pegando e tome


Refrão:

Dm                                  C
Tome, tome, tome, tome, tome, tome, tome,

Enche o copo de Whisky, agora vire e
Dm                                  C
Tome, tome, tome, tome, tome, tome, tome,

Enche o copo de Whisky, agora vire e
Dm                                  C
Tome, tome, tome, tome, tome, tome, tome,
                                     Dm
Enche o copo de Whisky, agora vire e Tome


Solo:


   Dm                                         C
E|---------------------------------------------------------------------------
A|---------------------------------------------------------------------------
D|---------------------------------------------------------------------------  (2x)
G|---------------------------------------------------------------------------
B|-----------10---10--------------10---10------------8-10-8-10---------8-----
E|10--10--10----8----8-10--10--10----8----8--8--8--8-----------8--8--8-----12


(Repete tudo)