Cifra da Música Sol de Giz de Cera - Emicida


A- A A+

E|----------------------------------------------------------------------------
B|-----------------------------------4---4-----4---4-----8---8----------------
G|---------------------------------5---5----5---5-----7---7----------5---5---
D|-----------------------------------------------------------------------8---8
A|----------------------------------------------------------------------------
E|----------------------------------------------------------------------------


Sou eu quem mata o leão, quem vence o dragão,
ufa, enfrenta a vida dura
Dom Quixote doidão, de espada na mão
e ainda volto pra casa com a mistura, cantando:
Pa pa pa para, pa pa pa para (4x)

E|----------------------------------------------------------------------------
B|-----------------------------------4-----8-----8---8---8--------------------
G|---------------------------------5---5/7-----8---7---7---5---5--------------
D|-----------------------------------------------------------8---8------------
A|----------------------------------------------------------------------------
E|----------------------------------------------------------------------------