Cifra da Música Ó Pai Celeste - Harpa Cristã


A- A A+

E|----------13-----11--11-10-8-----11-------|-8-7-8-4----------9--8-9-6--------|
B|-9--9--9--9-------------------11------14--|-4---4-------4----6--6-6-6----6---|
G|-10-10-10--------13--13-13-13-13-12---12--|---7---5-----5----------------6---|
D|-10-10-10-11-----10--10-8--10-12----------|-6-6-6-------6----6--6-6-6----6---|
A|-8--8--8---------11--11-8--8--13-13-------|-------6--------------------------|
E|----------9----------------------11-------|-4-4-4-4-----4----9--9-9-9----9---|


E|---------------------9--8---------4--------|----------------------------------|
B|-0--0--0---------9---------9---11-1--------|----------------------------------|
G|-13-12-10-8----------10-8------0--1--------|----------------------------------|
D|-0--0--0--10-----10--------10--11-1--------|----------------------------------|
A|-11-11-11-11-----11--11-11-11--------------|----------------------------------|
E|----------11-----13--9--11-11--11-4--------|----------------------------------|