Cifra da Música Ó Vem Já! - Harpa Cristã


A- A A+

E|-11--11--11-------|---------11--11-|-9---9---9---13-12-|-11------11-----|
B|------------------|-------------9--|-9---9---9---------|-------------14-|
G|-12--12--12-----3-|----------------|-------------------|---------13--8--|
D|------------------|---------8---6--|-------------------|-10------10--8--|
A|-13----------11---|----------------|-8-----------11-13-|----------------|
E|-11--11--11-------|-4---4---6---8--|-9---9---9---------|-11--11--11--11-|


E|-8-------8----|
B|-4-------4----|
G|--------------|
D|-6------------|
A|--------------|
E|-4---4---4----|