Cifra da Música [1ª Voz] Manso e Suave - Harpa Cristã


A- A A+

E|-------------------------|----------------------|------------------------|
B|-----2-1-----------------|----------1--------1--|-------1-1--3--4---3-2--|
G|-1-1------1-1-1----------|-3-----------1---3----|-3-3-3------------------|
D|-----------------------1-|----------------------|------------------------|
A|-------------------------|----------------------|------------------------|
E|-------------------------|----------------------|------------------------|




31  |   |   |   |   |   |   |   |   |   |   |   |  |   |   |   |   |   |
E|-----------------------|----------------------|----------------------|
B|-1---------------------|-----2-1--------------|----------------------|
G|---3-1-1-0-1-3-1-------|-1-1-----1-3----------|----------------------|
D|-----------------3-3-1-|----------------------|----------------------|
A|-----------------------|-------------11-------|----------------------|
E|-----------------------|----------------------|----------------------|