Cifra da Música A Barca Da Vida - Harpa Cristã


A- A A+

E|----------------------|-8-----------5-------5-|-6-------8---10-------|
B|-8--------------------|-------------6-------6-|-6-------6------------|
G|-9--------------------|-10----------5-------8-|-7-----------10-------|
D|-10-------------------|-7---------------------|---------7------------|
A|----------------------|-8-----------8-------8-|---------8---13-------|
E|-8--------------------|-----------------------|-6--------------------|


E|-----10-----------------|----------------------|
B|-13------13--8---11--10-|----------------------|
G|-10------10--9-------9--|-10-------------------|
D|-10------10--10------8--|-7--------------------|
A|-12--13--12------10-----|-8--------------------|
E|-------------8-------8--|----------------------|