Cifra da Música Alma Triste, Abatida - Harpa Cristã


A- A A+


E|------------------------|------------------------|-------------8-------6-|
B|-10------10--10---------|-8-------8---8-------8--|-10------10--10------8-|
G|-10------10--10------10-|-9-------9---9-------9--|-10------10----------7-|
D|-10------10--10---------|-10------10--10------10-|-10------10--10--------|
A|---------------------12-|------------------------|-8-------8---8---------|
E|-13------13--13------13-|-8-------8---8-------8--|---------------------6-|



E|-5--------------------|----------------------|-8-------8---8-------8--|
B|-6-----------8--------|----------------------|------------------------|
G|-5-----------9--------|-10-------------------|-10------10--10------10-|
D|-------------8--------|-7--------------------|-7-------7---7-------7--|
A|----------------------|-8--------------------|-8-------8---8-------8--|
E|-8-----------8--------|----------------------|------------------------|



E|-10----------10-------|-8-----------8--------|-8-------8---8-------8--|
B|-6-----------6--------|----------------------|-10------10--10------10-|
G|----------------------|-10----------10-------|------------------------|
D|-8-----------8--------|-7-----------7--------|------------------------|
A|----------------------|-8-----------8--------|-8-------8---8-------8--|
E|-6-----------6--------|----------------------|------------------------|



E|-10----------10-------|-8--------------------|------------------------|
B|-11----------11-------|-10-------------------|-10------10--10---------|
G|----------------------|----------------------|-10------10--10------10-|
D|----------------------|----------------------|-10------10--10------7--|
A|----------------------|-8--------------------|-8-------8---8-------8--|
E|-6-----------6--------|----------------------|------------------------|



E|------------------------|-------------8-------6-|-5-----------3--------|
B|-8-------8---8-------8--|-10------10--10------8-|-6-----------5--------|
G|-9-------9---9-------9--|-10------10----------7-|-5-----------3--------|
D|-10------10--10------10-|-10------10--10--------|----------------------|
A|------------------------|-8-------8---8---------|-------------3--------|
E|-8-------8---8-------8--|---------------------6-|-8--------------------|


E|----------------------|
B|-6--------------------|
G|----------------------|
D|-7--------------------|
A|-8--------------------|
E|----------------------|