Cifra da Música Assim Como Estou - Harpa Cristã


A- A A+


E|-----------|-5---6-----|------------|---------10-|---------0--|-13--13--12-|
B|---------6-|-6---8---8-|---------10-|-13--13-----|-13------13-|-10--10-----|
G|-----------|-5---7---9-|-10------10-|-10--10--10-|-14------12-|-10------12-|
D|---------7-|---------8-|---------10-|-10--10-----|-10---------|-----12--11-|
A|---------8-|-8---------|-12---------|-12--12--13-|------------|---------12-|
E|-----------|-----6---8-|-13------13-|------------|-13------12-|-10--10-----|



E|-----0---8--|-8----------|-----------|-8---8---10-|-12--12--8-|-13--5---7-|
B|-15------10-|-----11--10-|-10--8---8-|-8---8---0--|-8---8---8-|-10--6---6-|
G|-10--12--10-|-10--12--10-|-10--9---9-|-9-------12-|---------9-|-10------7-|
D|-12---------|-12--10--10-|-10--------|-----10-----|-10--10--8-|---------5-|
A|-13------12-|-10--7---8--|-----------|---------10-|-----------|-12--5-----|
E|------------|------------|-8-------8-|-8---12-----|-----------|-----------|


E|-8---------|-6---6---5-|-5---3-----|---3-5---3-|-1--------|
B|-5-------6-|-6---5---6-|-3-------6-|-6-------5-|----------|
G|-5-------5-|-7---5---5-|-3-------5-|-2-3-5---3-|-3---2----|
D|---------7-|-5---------|-----------|-----------|-3--------|
A|-----------|---------8-|---------0-|-5---3---3-|----------|
E|-8---------|-----8-----|-6---------|-----------|-1--------|