Cifra da Música Deus Tomará Conta De Ti - Harpa Cristã


A- A A+

E|-6-6-6-5-----6--------|-10---10---6-10-10-11-10--|-8----8----5-8-8-10-8--|
B|-3-3-3-1--------------|-6----6--6---6--6-----6---|-6----6--6-6-6-6-6--6--|
G|-------------7--------|---------7-7--------------|-----------5-----------|
D|-3-3-3-3--------------|-8----8--8-8-8--8--8--8---|-7----7--7---7-7-8--7--|
A|-------------8--------|--------------------------|-8----8--8-8-8-8-8--8--|
E|-------1-1-1-6--------|-6----6--6-6-6--6--6--6---|-----------------------|


E|-10-10-10-10--6-----------11--|-10-8-6-10--8--6---5-6--|----------------------|
B|-6--6--6--6------8--8--8--8---|------3-----------------|----------------------|
G|--------------7--8--8--8------|-10-8-3-10--8--7---5-7--|----------------------|
D|-8--8--8--8---8--8--8--8--8---|-8--8-3-8---------------|----------------------|
A|------------------------------|-8--8---8---8--8---8-8--|----------------------|
E|-6--6--6--6---6--11-11-11-11--|---------------------6--|----------------------|