Cifra da Música Deus Vai Ti Guiar - Harpa Cristã


A- A A+

E|-4----4--6-4---|-9-9-8-6------|---------8-6-4-|-----4--------|-4-4-3-4-9------|
B|-6----6--7-6-6-|-9-9-9-7-9----|-7----7--7-7-7-|-7-7-6-7-6----|-6-6-5-6-----9--|
G|-6----6--6-6-6-|---6-6-6-10---|-8----8--8-6-6-|-8-8---8-6----|-6-6-6-6-10--10-|
D|-------------6-|-6-------11---|-10---10-6-6-6-|-6-6-6-6-6----|-------------11-|
A|-4----4--4-4---|-8-8-9-9------|-11---11-------|---------4----|-4-4-4-4-11-----|
E|-------------9-|---------9----|---------------|-4-4-4-4------|---------9---9--|


E|-------9--8--6----|-11-11-6--9-9---4-|-4------------|--------------|
B|-8--9--9--9--7----|-7--7-----7-6---6-|-6-6-7-4------|--------------|
G|-9--10-------6----|-------11-------6-|---6-8-5-6----|--------------|
D|-11-11-11-11------|-8--8--8--8-6---6-|-6-6-6-6-3----|--------------|
A|-------8--8--9----|-9--9--9--9-------|---------4----|--------------|
E|-9--9-------------|------------------|-4-4-4-4------|--------------|