Cifra da Música Eis o Brasil Em Tua Mãos - Harpa Cristã


A- A A+

E|-------------11-|-8---6---------|--------------|-6-------8---10-|
B|-----8---11-----|---------9---8-|-6------------|-------------6--|
G|-8---8---8------|-8---8---7---8-|-7------------|-8-------8------|
D|-8---8---8------|-10--6---8-----|-8------------|-8-------6---6--|
A|-10------10-----|-11------8---6-|--------------|-10----------8--|
E|-11-------------|---------------|-6------------|----------------|


E|-11-------------|---------1-----|--------------|--------------|
B|-8----6------9--|-8-------3-----|--------------|--------------|
G|-0-------8---10-|-8-------3---1-|-0------------|--------------|
D|------6--8---10-|-8-------------|-13-----------|--------------|
A|-6----8--10--11-|---------1-----|--------------|--------------|
E|----------------|---------------|-11-----------|--------------|