Cifra da Música Espero Em Ti - Harpa Cristã


A- A A+

E|-6------------|-6--------------|-6----8--6----|-6--------------|-6----8--6----|
B|--------------|-8-------8---9--|-8----9--8----|-8-------8---9--|-8----9--8----|
G|-7------------|---------8---10-|-8----8--8----|---------8---10-|-8----8--8----|
D|-8------------|-8-------8---8--|--------------|-8-------8---8--|--------------|
A|--------------|-6-------6---6--|-6----6--6----|-6-------6---6--|-6----6--6----|
E|-6------------|----------------|--------------|----------------|--------------|


E|-11------10--8-|-6----4--3-----|---------6----|--------------|--------------|
B|---------------|-4----4--4---4-|-6-------3----|--------------|--------------|
G|-8-------8---8-|-0----5--3---3-|-5------------|-0------------|--------------|
D|-10------8---6-|---------------|-6-------3----|-13-----------|--------------|
A|-6-------6---6-|-6----6--6-----|--------------|--------------|--------------|
E|---------------|-------------3-|-4-------6----|-11-----------|--------------|