Cifra da Música Face a Face - Harpa Cristã


A- A A+

E|-8----8--10-8-6-5-|-6-------10---|-8----10-8--0--0----|--------------|
B|---------6--------|---------6----|------------11-10-8-|-10-----------|
G|-8----8-----8-7-7-|-7------------|-10---10-10-0-----9-|-10--7---8----|
D|-7----7--8--7-----|---------8----|------8--------10-8-|-7---8---10---|
A|-8----8--8--8-8-8-|-8------------|-12------12---------|-8------------|
E|------------------|-6-------6----|-8----8--8--8--8--8-|--------------|


E|-10---10-11-10-8-6-|---------11--------|-----10--10---8--|-6------------|
B|-6----6-----6------|-13----------------|-----------------|-3------------|
G|---------------8-7-|-0-------12--12-12-|-10--10--10---8--|-3------------|
D|-8----8--8--8------|-13----------11-11-|-12--------------|--------------|
A|---------------8-8-|---------13--13-13-|-13--13--12---12-|--------------|
E|-6----6--6--6--6-6-|-11------11--12-12-|-13--13--13---13-|-6------------|