Cifra da Música Glória ao Salvador - Harpa Cristã


A- A A+

E|-4----6--4-----|---------4----|-8----9--8---4-|-6----8--6----|-8---8-6-4---4-3-|
B|-6----6--6---6-|-4----6-------|-4-----------4-|-4------------|-4---4-------4-4-|
G|-------------6-|-5----6--5----|------8--8-----|-0-------0----|-------6-5-------|
D|-6----6--6---6-|-6------------|-6----6--6---6-|------6-------|-6---6-6-6---6-6-|
A|-4----4--4---4-|--------------|---------------|-6------------|---------------3-|
E|---------------|-4------------|-------------8-|--------------|-4---4-4-4---8---|


E|--------------|-8-------8------|-4------------|
B|-6---9--------|------9------11-|-1------------|
G|-6---6---8----|-8-------8---0--|-1------------|
D|-6---6---10---|------10-----11-|--------------|
A|-----8---11---|-11---11-11-----|--------------|
E|-9------------|-11---11-11--11-|-4------------|