Cifra da Música Há Poder No Sangue de Jesus - Harpa Cristã


A- A A+

E|-10-------10---|-8-6-6-------5-6-|-8---8-------6-8-|-10------------6-|
B|-6--------6----|-8-8-8-8-6-------|-----------------|-6-----------6---|
G|---------------|-------8-7---5-7-|-8---8-------7-8-|-------------7-7-|
D|-8---8--8-8----|-8-8-8-8-8-------|-----7-7-7-------|-----8-8-8---8-8-|
A|--------8------|-6-6-6-6---------|-----8-8-8-------|-----------------|
E|-6---10--------|---------6-------|-----------------|-----6-6-6---6-6-|


E|-10-------10---|-8-6-6-------5-6-|-8----11-10--8-8-|-6------------|
B|-6--------6----|-8-8-8-8-6-------|-----------------|--------------|
G|---------------|-------8-7---5-7-|-8----8--10--8-8-|-7------------|
D|-8---8--8-8----|-8-8-8-8-8-----8-|-7----10-7---7-7-|-8------------|
A|--------8------|-6-6-6-6-----8-8-|-8----8--8---8-8-|-8------------|
E|-6---10--------|---------6-------|-----------------|-6------------|