Cifra da Música Ide Por Todo o Mundo - Harpa Cristã


A- A A+

E|---------------|-6---------6---6-6-|-11---10-8--6--3---|-6---4---3-------|
B|-8-6-4-6-8---8-|-8-9--8-9--8---8-8-|-11---11-8--8--4-4-|-3---6---4-6-4-6-|
G|-8-7-5-7-8---8-|---10-8-10---------|-0-------0--0--0-3-|-----3---3-7-5-7-|
D|-8-8-5-8-8---8-|-8-8--8-8--8---8-8-|-----------------5-|-3---------8-8-8-|
A|-6---6---6---6-|-6----6----6---6-6-|---------------6-6-|---------6---6---|
E|---6---6-------|---6----6----------|-11------11-11-----|-6---6-----6---6-|


E|---------6---------|-6---6---11---|-------------------|--------------|
B|-8---8---8-9--8-9--|-8---8---8----|-11--8---8--6----6-|--------------|
G|-8---8-----10-8-10-|--------------|-12--8---8--7-8--7-|-0------------|
D|-8---8---8-8--8-8--|-8---8---8----|-8---8---8--8-10-8-|-13-----------|
A|-6-------6----6----|-6---6--------|--------------11---|-13-----------|
E|-----6-----6----6--|---------11---|-11--11--11-6-8--6-|-11-----------|