Cifra da Música Noiva de Jesus, Apronta-te - Harpa Cristã


A- A A+

E|-10-----10-------------0---------------------8--8------|
B|-8------0-----------12-10-0--10--------------7--7---7--|
G|-0---12-------------12----12-11---7-----------------7--|
D|-9------------------12-10-12-10--------------7--7---9--|
A|-----10-------------10-10-10------9--------------------|
E|-----------------------------10---10---------10-10--10-|


E|------3---------------------------------------|
B|-10---3---------------------------------------|
G|-7----4---------------------------------------|
D|-10-------------------------------------------|
A|----------------------------------------------|
E|-10---3---------------------------------------|