Cifra da Música O Gozo Dos Santos - Harpa Cristã


A- A A+

E|-0-------0-|-0------------|-------3----|-7-------5-7-|-8---------|
B|-13------8-|-8----------0-|----0--5----|-6---------6-|-8-8--8----|
G|-0-------0-|-0-------10---|-9--10-5----|-0-------5-0-|-9-10-9----|
D|-----------|---------12---|-10-12------|---------5---|---12-10---|
A|-----------|---------12---|-------3----|-------------|-----------|
E|-8-------8-|-8-------8----|-8--8-------|-3-------3-3-|-8-8--8----|


E|---------7--8-|-8---0----|-3---3---3-|-3--------|
B|-10------0--6-|-5-8-8----|-3---5---6-|-5--------|
G|-10------10---|-0-5-0----|-4---5---7-|-5--------|
D|-10---------7-|----------|-----------|----------|
A|-8-------8--8-|---7------|-----------|-3--------|
E|--------------|-8-8-8----|-3---3---3-|----------|