Cifra da Música Outro Bem Não Acharei - Harpa Cristã


A- A A+

E|-8-----------6--10-|-11----------4-8-|-6-------1---8-|-6---3---3---1-|
B|-8---8---8---9-----|-11--11------4---|-8---8---1---4-|-8---4-4-3---3-|
G|-8---8---8---10----|-12--12----------|-8---8---1---5-|-8---3---3---3-|
D|-------------8-----|-13--13------6---|-8---8-------4-|-8---5---6-----|
A|-10--10--10--------|-----------------|-------------0-|-------------1-|
E|-8---8---8---6-----|-11--11--4---4---|-6---6---4-----|-6---6---6-----|


E|--------------|
B|-4------------|
G|-3------------|
D|-5------------|
A|-6------------|
E|-----6--------|