Cifra da Música Quanto Almejo! - Harpa Cristã


A- A A+

E|----------|------------|-8-------8--|-8---9---8-|-8---6---1-|-3---1---3-|
B|-11-------|------------|------------|-----------|---------2-|-2---2---2-|
G|-0--------|-8---10--8--|---------8--|-8-------8-|-6-------3-|-3---3---3-|
D|-11-------|-11------11-|-10---------|-7-------7-|-----------|-1---1---1-|
A|----------|-10------10-|-11------11-|-8-------8-|-8-------1-|-----------|
E|-11-------|-11------11-|------------|-----------|-6---------|-----------|


E|-4--------|----------|
B|-1--------|----------|
G|-1--------|----------|
D|----------|----------|
A|----------|----------|
E|-4--------|----------|