Cifra da Música Queres Perdão - Harpa Cristã


A- A A+

E|-------8--13-----11----11-9-6----------|---8-8-8-----6-------8-----4--------|
B|----9--9--9------9---7-6--6-6-6--------|---6--------------------11-1--------|
G|-8--8--8---------------6--6-6-6--------|-8---8-8-----7----8--8--0--1--------|
D|-10-10----11-----10-----------8--------|-6-6-6-8-----6----11----11----------|
A|-11-11-11-11-----11--------------------|-6-6-6-8----------10-10-------------|
E|-----------------------9--9-9-9--------|-------------6----11-11-11-4--------|


E|----------------------------------|
B|----------------------------------|
G|----------------------------------|
D|----------------------------------|
A|----------------------------------|
E|----------------------------------|