Cifra da Música Senhor, Manda Teu Poder - Harpa Cristã


A- A A+

E|-----8--8--8----|---------10--------|---------------3-3-|-5-5-----3-3--|
B|-10--10-10-10---|-13----------13-10-|---------------6-6-|-6-6-----5-5--|
G|-10--10-10-10---|-10------10--10-10-|-10--10-10-10--4-4-|-5-5-----3-3--|
D|-10-------------|----------------10-|-----12-12-10------|--------------|
A|-8---8--8--8----|-12------13--12----|-12--13-13-12--5-5-|-3-3-----3-3--|
E|----------------|-13------13--13-13-|-13--13-13-13------|--------------|


E|--------------|
B|-6------------|
G|-2------------|
D|-3------------|
A|--------------|
E|--------------|