Cifra da Música Terra De Jesus - Harpa Cristã


A- A A+

E|-8-6--6----6-11---|-8--8--8-8--8----|-11-6-6---6----|----------------|
B|------6-10-6-8----|-9--9----9--9----|-8--8-8-8------|-8-8-8-6-4-6----|
G|-7-8----10--------|-----------------|-8--8-8-8-8----|-8-8-8-7-5-7----|
D|------8-8--8-8----|-------6----10---|-8--8-8-8-8----|-8-8-8-6-5-8----|
A|-8-10-------------|-11-11---11------|--------6-6----|-6-6-6---6-6----|
E|-6-6--6-6--6-11---|-11-8--4-8--11---|---------------|-------6--------|


E|-6-6-6----------|--------------|
B|-------9-6------|--------------|
G|-7-7-7-7-7-0----|--------------|
D|-8-8-8-8-6-13---|--------------|
A|-----------13---|--------------|
E|-6-6-6-6-6-11---|--------------|