Cifra da Música Tua Graça Me Basta - Harpa Cristã


A- A A+

E|-6-5-8-6----------------|---------------------6-11--10-|
B|-8-7-7-8--8--6--------6-|-8--7--8--11--8--6---3--------|
G|---5------8--7--------7-|-8--8--8--8---8--7---3-8---10-|
D|-8---7-8--8--8--------8-|-8--7--8--8---8--8---6-8---8--|
A|-6-6-6-6--6-------------|----------10-----------10--8--|
E|-------------6--------6-|-11-11-11-----11--------------|


E|-8------------13-6--------|
B|----8--11-10--13-3--------|
G|-9--9--9--8------3--------|
D|-8--10-10-10--13----------|
A|-10-10----8---------------|
E|-------8------13-6--------|