Cifra da Música Vencerá! - Harpa Cristã


A- A A+

E|-10----10-10----10----10-10----|-12-10-9--7-9----|-9------7-5-----|
B|-12----12-12----12----12-12----|-14-12-10-9-10---|---10-9-------5-|
G|-9--9-----9--9--9--9-----9--9--|-9--9--9--9-9----|-9-6--7-7-6---6-|
D|-------------------------------|------------7----|-7-7--9-6-----7-|
A|-11-11----------11-11----------|----------7------|-0-0--7-7-7-----|
E|----------12-12----------12-12-|-12-12-12--------|----------5---5-|


E|-12-12----9---------|----------9--9--------10-|-9--------------|--------------|
B|-------15----12-----|-------10-------10-10----|-----12---------|--------------|
G|-9--9--9--9--11--11-|-9--9-----9--9--9--11-11-|-9------14-14---|--------------|
D|-11-11-9---------12-|-11-11-11-------11-12----|-----12-11-11---|--------------|
A|-12-12-12-12-12-----|-12-12-12-12-12----9--12-|-12--11-0--0----|--------------|
E|-------------10-----|-12-12-12-12-12-12----10-|-12-----12-12---|--------------|