Cifra da Música Voltai-vos Para Mim - Harpa Cristã


A- A A+

E|-6-----6-4----4-|-9--9--9-----8--8--8-----|-8-----8--11-6------|
B|---6-8--------4-|----------11----------9--|----9--------4----4-|
G|-6-6-6-6-5------|-10-10-10-0--8--10-8-----|-8--8--10-8--0----5-|
D|-5-6-8-5-6----6-|----------13----------10-|----10------------6-|
A|-6-6-6-6--------|-11-11-11----11-11-11-11-|-11-11-11-11-6------|
E|---------4----8-|-9--9--9--11-------------|-------13-8-------4-|


E|-4-6-8-------4-8-|-6--------4----|
B|-----4-4-6-8-4-4-|---6-8-11-1----|
G|-5-6---5-6-6-----|-6-6-6-0--1----|
D|-----6-6-6-8-6-6-|-5-6-8-11------|
A|-6-6-------------|-6-6-6---------|
E|-4-4-4-4-9-6-8-4-|-------11-4----|