Cifra da Música Hosana - Hillsong United


A- A A+

E|------4-------4-------------------------------------------
B|----5-----5p7-------4-------4-----5---5--------4-------4--
G|--6-----6---------4-----4p6-----6-------6----4-----4p6----
D|----------------6-----6-------7-----7------6-----6--------
A|----------------------------------------------------------
E|----------------------------------------------------------

E|------4-------4-----------------------7-----------9-------
B|----5-----5p7-------4-------4-----5-----5-----7-----7-----
G|--6-----6---------4-----4p6-----6-----------8-------------
D|----------------6-----6-------7-----7-----9-----9---------
A|----------------------------------------------------------
E|----------------------------------------------------------



E
I see the king of glory
C#m
Coming on the clouds with fire
                F#m
The whole earth shakes
                G#m	    C#m
The whole earth shakes

E
I see his love and mercy
C#m
Washing over all my sin
           F#m
The people sing
           B
The people sing

Refrão:
        G#m A
Ho ---	sanna
  	B  C#m
Ho ---	sanna
  A	       C#m   B
Hosanna in the highest

  	G#m A
Ho ---	sanna
  	B  C#m
Ho ---	sanna
  A	       B     C#m
Hosanna in the highest

Verso 2:
E
I see a generation
C#m
Rising up to take their place
	      F#m
With selfless faith
	      G#m
With selfless faith

E
I see a near revival
C#m
Staring as we pray and seek
	     F#m
We're on our knees
	     B
We're on our knees

Refrão:
        G#m A
Ho ---	sanna
  	B  C#m
Ho ---	sanna
  A	       C#m   B
Hosanna in the highest

  	G#m A
Ho ---	sanna
  	B  C#m
Ho ---	sanna
  A	       B
Hosanna in the highest

Instumental 2x: C#m  E  F#m   G#m

Ponte:
A			  B
Heal my heart and make it clean
E			     C#m
Open my eyes to the things I see
A			 B		 C#m
Show me how to love like you, have loved me
A				B
Break my heart for what breaks yours
E			 C#m
Everything I am for your kingdom cause
A		        B	   E
As I walk from earth in to eternity

Refrão / Outro:
        G#m A
Ho ---	sanna
  	B  C#m
Ho ---	sanna
  A	       C#m   B
Hosanna in the highest

  	G#m A
Ho ---	sanna
  	B  C#m
Ho ---	sanna
  A	       B     E
Hosanna in the highest

        G#m A
Ho ---	sanna
        B  C#m
Ho ---	sanna
  A	       C#m   B
Hosanna in the highest

  	G#m A
Ho ---	sanna
  	B  C#m
Ho ---	sanna
  A	       B     C#m
Hosanna in the highest
  A	       B     E
Hosanna in the highest