Cifra da Música Auto Reverse - O Rappa


A- A A+

segue correção da versão postada anteriormente por Tobias

-> toca primeiramente o c# na corda de A e depois repete tudo a música inteira a partir da segunda nota B. 

G|----|----------------------------------------|
D|----|----------------------------------------|
A|-4--|--2-4-2-4-2-------------------2-4-------|
E|----|-------------5-2----2-5-2-5-2-----------|



Bem, ao que deu pra entender a parte do baixo fica mais ou menos assim!

G|------------------------------------------|
D|------------------------------------------|
A|-7----7---7---7--11-9-----7---7---7-------|
E|----9---9---9-----------9---9---9----10-9-|
   
Depois que toca o "7" do começo o resto vai ficar msm assim, que se repete por toda a musica!

A|------7---7---7--11-9-----7---7---7-------|
E|----9---9---9-----------9---9---9----10-9-|