Cifra da Música Cabron - Red Hot Chili Peppers


A- A A+

E|-------10--------------|---------7-------------|
B|-------10--------------|---------7-------------|
G|-------11--------------|---------7-------------|
D|-------12--------------|-----------------------|
A|-----------------------|-----------------------|
E|-----------------------|-----------------------|


E|--9/---14------------|--9/---7--------------|--7/---3-------|
B|---------------------|----------------------|---------------|
G|---------------------|----------------------|---------------|
D|---------------------|----------------------|---------------|
A|---------------------|----------------------|---------------|
E|---------------------|----------------------|---------------|