Cifra da Música Easily - Red Hot Chili Peppers


A- A A+

E|-15--13-12-13-12--------12----------------------------------------
B|-----------------13--12----13-----13-12-13-12---------------------
G|-------------------------------12-------------12------------------
D|--------------------------------------------------14--14-/(10)-14-
A|------------------------------------------------------------------
E|------------------------------------------------------------------


E|-15/(17)~~-17-15--------15-------17^-17-15-17-15-------15---------
B|-----------------17--15----17~~------------------17-15----13~~~---
G|------------------------------------------------------------------
D|------------------------------------------------------------------
A|------------------------------------------------------------------
E|------------------------------------------------------------------