Cifra da Música Factory Of Faith - Red Hot Chili Peppers


A- A A+

E|----------------------5-*-5-*-5-*-5-*-5-*-5-10-*-10-*-10-*-10-*9-9-9-9-9-9-9-9--|
B|----------------------6-*-6-*-6-*-8-*-8-*-8-10-*-10-*-10-*-10-*9-9-9-9-9-9-9-9--|
G|----------------------7-*-7-*-7-*-7-*-7-*-7-10-*-10-*-10-*-10-*9-9-9-9-9-9-9-9--|
D|--------------------------------------------------------------------------------|
A|--------------------------------------------------------------------------------|
E|-7-*-7-*-7-*-7-*-7-*-7----------------------------------------------------------|


E|-10-*-10-*-10-*-10-*10---10/down------------------------------------------------|
B|-10-*-10-*-10-*-10-*10---10/down------------------------------------------------|
G|-10-*-10-*-10-*-10-*10---10/down------------------------------------------------|
D|--------------------------------------------------------------------------------|
A|--------------------------------------------------------------------------------|
E|--------------------------------------------------------------------------------|