Cifra da Música Love Of Your Life - Red Hot Chili Peppers


A- A A+

E|-------3------------3------------3-----------------------|
B|-----3---3--------3---3--------3---3-----------------4---|
G|---3-------3----3-------3----3-------3--------3----------|
D|-5------------5------------5----------------3------5-----|
A|----------------------------------------3h5------3-------|
E|---------------------------------------------------------|


E|-------3------------3------------3------------------------3--|
B|-----3---3--------3---3--------3---3-----------------4----3--|
G|---3-------3----3-------3----3-------3--------3-----------3--|
D|-5------------5------------5----------------3------5------5--|
A|----------------------------------------3h5------3-----------|
E|-------------------------------------------------------------|