Cifra da Música Out In L.A. - Red Hot Chili Peppers


A- A A+

-----------------------------------------------------------------------------|
----15-----------------------------------------------------------------------|
-----------------------------------------------------------------------------|
-----------------------------------------------------------------------------|
-----------------------------------------------------------------------------|
-----------------------------------------------------------------------------|

    starts with this note,then improvisation

---12-15-17-19---------------------------------------------------------------|
---12-15-17-20---------------------------------------------------------------|
---12-14-16------------------------------------------------------------------|
---12-14-16------------------------------------------------------------------|
-----------------------------------------------------------------------------|
-----------------------------------------------------------------------------|