Cifra da Música Tell Me Baby - Red Hot Chili Peppers


A- A A+

E|----------------------------------------13------------------------------------------------|
B|---13--13----12-13--------13----13----12------15---------13---13-----12-13-------13----13-|
G|-14--12---12-------14--14----12-----12-----14----14---14----12----12-------14--14---12----|
D|------------------------------------------------------------------------------------------|
A|------------------------------------------------------------------------------------------|
E|------------------------------------------------------------------------------------------|




E|-13--13--13--13--13-|
B|-12--12--12--12--12-|
G|--------------------|
D|--------------------|
A|--------------------|
E|--------------------|