Cifra da Música Sem Você - Stefano Marx Barbosa Sousa


A- A A+

E|--9-7-9---12-10-10-9---10-9--4-2-4--7-5-5-4---5-4--|
B|---------------------------------------------------|
G|---------------------------------------------------|
D|---------------------------------------------------|
A|---------------------------------------------------|
E|---------------------------------------------------|


E|---------------------|
B|---------------------|
G|---------------------|
D|----2----------------|
A|--2---2/4--2-0-------|
E|---------------0-2---|