Cifra da Música Hadouken Theme - Street Fighter


A- A A+

---8/10-8~---------------------------10/12------------
-8----------8-7-8-8/10--8-10-10/12~--------12~--------
------------------------------------------------------
------------------------------------------------------
------------------------------------------------------
------------------------------------------------------


------------------------------------------------------
-10---7-8~--7-8-8/10--10-7-8~-------------------------
----9-------------------------------------------------
------------------------------------------------------
------------------------------------------------------
------------------------------------------------------