Cifra da Música Before The Creation Of Time - Unleashed


A- A A+

|--------------------------|----------------------------------------|
|--------------------------|----------------------------------------|
|--------------------------|----------------------------------------|
|---9-10---6-5---8-9---5-4-|-------h-p--3-------h-p--3-------h-p--2-|
|-7------3-----6-----2-----|------2-3-2-1------2-3-2-1------2-3-2---|
|--------------------------|-00-0---------00-0---------00-0---------|


Cont.                                                    Fill:1
|-------------------------------------------------------|-----------|
|-------------------------------------------------------|-----------|
|-------------------------------------------------------|-----------|
|--------------h-p--3-------h-p--3-------h-p--2----333--|--2--------|
|-111---------2-3-2-1------2-3-2-1------2-3-2---111-----|--2--------|
|----111-00-0---------00-0---------00-0-----------------|--0--------|