Cifra da Música Dark One - Unleashed


A- A A+

|-----------------------------|-------------------------------------|
|-----------------------------|-------------------------------------|
|-----------------------------|-------------------------------------|
|-----------------------------|-------------------------------------|
|4--445544--5544--44558888888-|-2-/7-/10-/3-2-/7-/10----------------|
|-55------44----55------------|-0-----------0--------5--------------|


Riff:7             Riff:8
|-----------------|-------------------------------------------------|
|-----------------|-------------------------------------------------|
|-----------------|-------------------------------------------------|
|-----------------|-3--------------------------------h-h--3-1-------|
|-2-2-3-2-2-7-8-7-|-1----2----2--h-h--5------2----2-0-2-3-----------|
|-0-------0-------|---00-0-00-0-0-4-5---5-00-0-00-0-----------------|