Cifra da Música In Hellfire - Unleashed


A- A A+

|--------------------------|
|--------------------------|
|--------------------------|
|-8--------------------8---|
|-6-5h65h65h65h65h65h6-6-8-|
|------------------------6-|




|--------------------------------------|
|--------------------------------------|
|-------------------------------5--5---|
|-4--------------------8---7----3--5---|
|-6-5h65h65h65h65h65h6-6---5-----------|
|--------------------------------------|