Cifra da Música Eu Sou Desejo Você É Paixão - Zezé Di Camargo e Luciano


A- A A+

E|-----------3-3-1-0---------------0-1-0----------------0----------------- -
B|--------------------3--------3-3---------------1-1-3------3-1-0--------- -
G|-------0-------------------0----------------------------------------2-0- -
D|-----2-------------------0-----------------2------------3--------------- -
A|---3-------------------------------------0--------0--------------------- -
E|-----------------------3------------------------------------------------ -


E|-----------3-3-1-0---------------0-1-0----------------0-1-0------------- -
B|--------------------3--------3-3---------------1-1-3----------3-1-0----- -
G|-------0-------------------0----------------------------------------0--- -
D|-----2-------------------0-----------------2-------------3-------------- -
A|---3-------------------------------------0--------0--------------------- -
E|-----------------------3------------------------------------------------ -